domingo, 22 de maio de 2011

Como ler tablatura

Veja como é fácil ler tablatura.

---------------------------------------------  Mí (mizinha)
---------------------------------------------  Sí
---------------------------------------------  Sol
---------------------------------------------  Ré
---------------------------------------------  Lá
---------------------------------------------  Mi  (mizão)

Cada uma destas linhas representam as cordas do violão/guitarra, só que invertido, a corda de baixo representa a corda mais grossa do violão/guitarra, ou seja, a Mí  "mizão", e a corda de cima representa a corda mais fina do violão Mí "mizinha".

-------------------------------0------------------------
-----------------------1-----------1--------------------
----------------0-----------------------0---------------
----------2----------------------------------2----------
-----3--------------------------------------------3----
------------------------------------------------------
A ordem que se segue para ler é da esquerda para direita. Os números sobre as linhas representam as casas do violão/guitarra, então no exemplo acíma temos o número três representando a casa três na corda lá, esta será a nota que você deve tocar e por ai em diante, os zeros significam que a corda deve ser tocada solta.



------3---------------------------           
------3---------------------------        
------0---------------------------        
------0---------------------------       
------2---------------------------
------3----------------------------
Esta outra situação, com um número abaixo do outro, significa que você deve tocar todas as notas ao mesmo tempo.No nosso exemplo o a acorde de (G) Sol.
Simples assim. Dúvidas comentem.

0 comentários:

Postar um comentário

Related Posts Plugin for WordPress, Blogger...